ISO-10303-21;
HEADER;
/* Generated by software containing ST-Developer
 * from STEP Tools, Inc. (www.steptools.com) 
 */
/* OPTION: using custom renumber hook */

FILE_DESCRIPTION(
/* description */ ('STEP AP242',
'CAx-IF Rec.Pracs.---Representation and Presentation of Product Manufa
cturing Information (PMI)---4.0---2014-10-13',
'CAx-IF Rec.Pracs.---3D Tessellated Geometry---0.4---2014-09-14','2;1'),

/* implementation_level */ '2;1');

FILE_NAME(
/* name */ '670dda6fe547655206c76f87',
/* time_stamp */ '2024-10-15T02:58:55Z',
/* author */ (''),
/* organization */ (''),
/* preprocessor_version */ 'ST-DEVELOPER v20',
/* originating_system */ '  ',
/* authorisation */ '  ');

FILE_SCHEMA (('AP242_MANAGED_MODEL_BASED_3D_ENGINEERING_MIM_LF { 1 0 10303 442 1 1 4 }'));
ENDSEC;

DATA;
#10=SHAPE_REPRESENTATION_RELATIONSHIP('','',#69,#11);
#11=ADVANCED_BREP_SHAPE_REPRESENTATION('',(#67),#115);
#12=PLANE('',#74);
#13=PLANE('',#78);
#14=PLANE('',#79);
#15=ORIENTED_EDGE('',*,*,#23,.F.);
#16=ORIENTED_EDGE('',*,*,#24,.T.);
#17=ORIENTED_EDGE('',*,*,#24,.F.);
#18=ORIENTED_EDGE('',*,*,#25,.F.);
#19=ORIENTED_EDGE('',*,*,#26,.T.);
#20=ORIENTED_EDGE('',*,*,#25,.T.);
#21=ORIENTED_EDGE('',*,*,#23,.T.);
#22=ORIENTED_EDGE('',*,*,#26,.F.);
#23=EDGE_CURVE('',#27,#27,#31,.T.);
#24=EDGE_CURVE('',#28,#28,#32,.T.);
#25=EDGE_CURVE('',#29,#29,#33,.T.);
#26=EDGE_CURVE('',#30,#30,#34,.T.);
#27=VERTEX_POINT('',#103);
#28=VERTEX_POINT('',#105);
#29=VERTEX_POINT('',#109);
#30=VERTEX_POINT('',#111);
#31=CIRCLE('',#72,0.0015);
#32=CIRCLE('',#73,0.0015);
#33=CIRCLE('',#76,0.00335);
#34=CIRCLE('',#77,0.00335);
#35=EDGE_LOOP('',(#15));
#36=EDGE_LOOP('',(#16));
#37=EDGE_LOOP('',(#17));
#38=EDGE_LOOP('',(#18));
#39=EDGE_LOOP('',(#19));
#40=EDGE_LOOP('',(#20));
#41=EDGE_LOOP('',(#21));
#42=EDGE_LOOP('',(#22));
#43=FACE_BOUND('',#35,.T.);
#44=FACE_BOUND('',#36,.T.);
#45=FACE_BOUND('',#37,.T.);
#46=FACE_BOUND('',#38,.T.);
#47=FACE_BOUND('',#39,.T.);
#48=FACE_BOUND('',#40,.T.);
#49=FACE_BOUND('',#41,.T.);
#50=FACE_BOUND('',#42,.T.);
#51=CYLINDRICAL_SURFACE('',#71,0.0015);
#52=CYLINDRICAL_SURFACE('',#75,0.00335);
#53=ADVANCED_FACE('',(#43,#44),#51,.T.);
#54=ADVANCED_FACE('',(#45),#12,.F.);
#55=ADVANCED_FACE('',(#46,#47),#52,.T.);
#56=ADVANCED_FACE('',(#48),#13,.T.);
#57=ADVANCED_FACE('',(#49,#50),#14,.F.);
#58=CLOSED_SHELL('',(#53,#54,#55,#56,#57));
#59=STYLED_ITEM('',(#60),#67);
#60=PRESENTATION_STYLE_ASSIGNMENT((#61));
#61=SURFACE_STYLE_USAGE(.BOTH.,#62);
#62=SURFACE_SIDE_STYLE('',(#63));
#63=SURFACE_STYLE_FILL_AREA(#64);
#64=FILL_AREA_STYLE('',(#65));
#65=FILL_AREA_STYLE_COLOUR('',#66);
#66=COLOUR_RGB('',0.647058823529412,0.647058823529412,0.647058823529412);
#67=MANIFOLD_SOLID_BREP('Part 2',#58);
#68=SHAPE_DEFINITION_REPRESENTATION(#120,#69);
#69=SHAPE_REPRESENTATION('Part 2',(#70),#115);
#70=AXIS2_PLACEMENT_3D('',#100,#80,#81);
#71=AXIS2_PLACEMENT_3D('',#101,#82,#83);
#72=AXIS2_PLACEMENT_3D('',#102,#84,#85);
#73=AXIS2_PLACEMENT_3D('',#104,#86,#87);
#74=AXIS2_PLACEMENT_3D('',#106,#88,#89);
#75=AXIS2_PLACEMENT_3D('',#107,#90,#91);
#76=AXIS2_PLACEMENT_3D('',#108,#92,#93);
#77=AXIS2_PLACEMENT_3D('',#110,#94,#95);
#78=AXIS2_PLACEMENT_3D('',#112,#96,#97);
#79=AXIS2_PLACEMENT_3D('',#113,#98,#99);
#80=DIRECTION('',(0.,0.,1.));
#81=DIRECTION('',(1.,0.,0.));
#82=DIRECTION('',(0.,1.,0.));
#83=DIRECTION('',(0.,0.,1.));
#84=DIRECTION('',(0.,-1.,0.));
#85=DIRECTION('',(0.,0.,-1.));
#86=DIRECTION('',(0.,-1.,0.));
#87=DIRECTION('',(0.,0.,-1.));
#88=DIRECTION('',(0.,-1.,0.));
#89=DIRECTION('',(1.,0.,0.));
#90=DIRECTION('',(0.,1.,0.));
#91=DIRECTION('',(0.,0.,1.));
#92=DIRECTION('',(0.,-1.,0.));
#93=DIRECTION('',(0.,0.,-1.));
#94=DIRECTION('',(0.,-1.,0.));
#95=DIRECTION('',(0.,0.,-1.));
#96=DIRECTION('',(0.,-1.,0.));
#97=DIRECTION('',(1.,0.,0.));
#98=DIRECTION('',(0.,-1.,0.));
#99=DIRECTION('',(1.,0.,0.));
#100=CARTESIAN_POINT('',(0.,0.,0.));
#101=CARTESIAN_POINT('',(-0.0396357350869646,-0.01,-0.00360484177477202));
#102=CARTESIAN_POINT('',(-0.0396357350869646,-0.01,-0.00360484177477202));
#103=CARTESIAN_POINT('',(-0.0396357350869646,-0.01,-0.00510484177477202));
#104=CARTESIAN_POINT('',(-0.0396357350869646,-0.005,-0.00360484177477202));
#105=CARTESIAN_POINT('',(-0.0396357350869646,-0.005,-0.00510484177477202));
#106=CARTESIAN_POINT('',(-0.02059187553823,-0.005,-0.00634723373976799));
#107=CARTESIAN_POINT('',(-0.0396357350869646,-0.013,-0.00360484177477202));
#108=CARTESIAN_POINT('',(-0.0396357350869646,-0.013,-0.00360484177477202));
#109=CARTESIAN_POINT('',(-0.0396357350869646,-0.013,-0.00695484177477202));
#110=CARTESIAN_POINT('',(-0.0396357350869646,-0.01,-0.00360484177477202));
#111=CARTESIAN_POINT('',(-0.0396357350869646,-0.01,-0.00695484177477202));
#112=CARTESIAN_POINT('',(-0.0396357350869646,-0.013,-0.00360484177477202));
#113=CARTESIAN_POINT('',(-0.0396357350869646,-0.01,-0.00360484177477202));
#114=MECHANICAL_DESIGN_GEOMETRIC_PRESENTATION_REPRESENTATION('',(#59),#115);
#115=(
GEOMETRIC_REPRESENTATION_CONTEXT(3)
GLOBAL_UNCERTAINTY_ASSIGNED_CONTEXT((#116))
GLOBAL_UNIT_ASSIGNED_CONTEXT((#119,#118,#117))
REPRESENTATION_CONTEXT('Part 2','TOP_LEVEL_ASSEMBLY_PART')
);
#116=UNCERTAINTY_MEASURE_WITH_UNIT(LENGTH_MEASURE(5.E-6),#119,
'DISTANCE_ACCURACY_VALUE','Maximum Tolerance applied to model');
#117=(
NAMED_UNIT(*)
SI_UNIT($,.STERADIAN.)
SOLID_ANGLE_UNIT()
);
#118=(
NAMED_UNIT(*)
PLANE_ANGLE_UNIT()
SI_UNIT($,.RADIAN.)
);
#119=(
LENGTH_UNIT()
NAMED_UNIT(*)
SI_UNIT($,.METRE.)
);
#120=PRODUCT_DEFINITION_SHAPE('','',#121);
#121=PRODUCT_DEFINITION('','',#123,#122);
#122=PRODUCT_DEFINITION_CONTEXT('',#129,'design');
#123=PRODUCT_DEFINITION_FORMATION_WITH_SPECIFIED_SOURCE('','',#125,
 .NOT_KNOWN.);
#124=PRODUCT_RELATED_PRODUCT_CATEGORY('','',(#125));
#125=PRODUCT('Part 2','Part 2','Part 2',(#127));
#126=PRODUCT_CATEGORY('','');
#127=PRODUCT_CONTEXT('',#129,'mechanical');
#128=APPLICATION_PROTOCOL_DEFINITION('international standard',
'ap242_managed_model_based_3d_engineering',2011,#129);
#129=APPLICATION_CONTEXT('managed model based 3d engineering');
ENDSEC;
END-ISO-10303-21;
